เสียว 2 ตัว เน้นๆ อ.ไม้

เสียว 2 ตัว เน้นๆ อ.ไม้
9.30-----------อัด01
โปรดระวังมิจฉาชีพหลอกโอนเงิน! ทางเว็บไม่มีนโยบายเปิดเผยเลขที่บัญชีผ่านช่องแสดงความคิดเห็น หรือที่อื่น ๆ ที่อยู่นอกเหนือจากหน้าแจ้งเติมเงิน โปรดระวังมิจฉาชีพแอบอ้าง หากท่านใดพบว่ามีสมาชิกโพสต์เลขที่บัญชีในส่วนของช่องแสดงความเห็นอันมีเจตนาแอบอ้างเป็นผู้ดูแลเว็บนี้ โปรดแจ้ง Admin เพื่อดำเนินการในขั้นตอนต่อไป

ข้อสังเกต: Webmaster หรือ Admin ผู้ดูแลระบบตัวจริง จะต้องมีเครื่องหมาย admin หลังชื่อเท่านั้น
monmai2
เมื่อ  9 วันที่ผ่านมา  โดย monmai2
เสียว 2 ตัว เน้นๆ อ.ไม้
09.45-----------67--------------
monmai2
เมื่อ  9 วันที่ผ่านมา  โดย monmai2
เสียว 2 ตัว เน้นๆ อ.ไม้
09.45-----------67--------------
10.00-----------45--------------
monmai2
เมื่อ  9 วันที่ผ่านมา  โดย monmai2
สียว 2 ตัว เน้นๆ อ.ไม้
09.45-----------67--------------
10.00-----------45--------------637-58//
10.15-----------89--------------

สนใจทักมา id monrudee999
monmai2
เมื่อ  9 วันที่ผ่านมา  โดย monmai2
เสียว 2 ตัว เน้นๆ อ.ไม้
09.45-----------67--------------
10.00-----------45--------------637-58//
10.15-----------89--------------609-77//
10.30-----------78--------------
monmai2
เมื่อ  9 วันที่ผ่านมา  โดย monmai2
เสียว 2 ตัว เน้นๆ อ.ไม้
09.45-----------67--------------
10.00-----------45--------------637-58//
10.15-----------89--------------609-77//
10.30-----------78--------------578/65//เด้ง
10.45-----------56--------------
monmai2
เมื่อ  8 วันที่ผ่านมา  โดย monmai2
เสียว 2 ตัว เน้นๆ อ.ไม้
09.45-----------67--------------
10.00-----------45--------------637-58//
10.15-----------89--------------609-77//
10.30-----------78--------------578/65//เด้ง
10.45-----------56--------------167-07//
11.00-----------01--------------
monmai2
เมื่อ  8 วันที่ผ่านมา  โดย monmai2
เสียว 2 ตัว เน้นๆ อ.ไม้
09.45-----------67----------------------------
10.00-----------45--------------637-58//
10.15-----------89--------------609-77//
10.30-----------78--------------578/65//เด้ง
10.45-----------56--------------167-07//
11.00-----------01--------------868/45---------
11.15-----------45--------------
monmai2
เมื่อ  8 วันที่ผ่านมา  โดย monmai2
เสียว 2 ตัว เน้นๆ อ.ไม้
09.45-----------67----------------------------
10.00-----------45--------------637-58//
10.15-----------89--------------609-77//
10.30-----------78--------------578/65//เด้ง
10.45-----------56--------------167-07//
11.00-----------01--------------868/45---------
11.15-----------45--------------353/70//
11.30-----------78--------------
monmai2
เมื่อ  8 วันที่ผ่านมา  โดย monmai2
เสียว 2 ตัว เน้นๆ อ.ไม้
09.45-----------67----------------------------
10.00-----------45--------------637-58//
10.15-----------89--------------609-77//
10.30-----------78--------------578/65//เด้ง
10.45-----------56--------------167-07//
11.00-----------01--------------868/45---------
11.15-----------45--------------353/70//
11.30-----------78--------------947/31//
11.45-----------12--------------
monmai2
เมื่อ  8 วันที่ผ่านมา  โดย monmai2
เสียว 2 ตัว เน้นๆ อ.ไม้
09.45-----------67----------------------------
10.00-----------45--------------637-58//
10.15-----------89--------------609-77//
10.30-----------78--------------578/65//เด้ง
10.45-----------56--------------167-07//
11.00-----------01--------------868/45---------
11.15-----------45--------------353/70//
11.30-----------78--------------947/31//
11.45-----------12--------------794/26//
12.00-----------67--------------
monmai2
เมื่อ  8 วันที่ผ่านมา  โดย monmai2
เสียว 2 ตัว เน้นๆ อ.ไม้
09.45-----------67----------------------------
10.00-----------45--------------637-58//
10.15-----------89--------------609-77//
10.30-----------78--------------578/65//เด้ง
10.45-----------56--------------167-07//
11.00-----------01--------------868/45---------
11.15-----------45--------------353/70//
11.30-----------78--------------947/31//
11.45-----------12--------------794/26//
12.00-----------67--------------489/65//
12.15-----------56--------------
monmai2
เมื่อ  8 วันที่ผ่านมา  โดย monmai2
เสียว 2 ตัว เน้นๆ อ.ไม้
09.45-----------67----------------------------
10.00-----------45--------------637-58//
10.15-----------89--------------609-77//
10.30-----------78--------------578/65//เด้ง
10.45-----------56--------------167-07//
11.00-----------01--------------868/45---------
11.15-----------45--------------353/70//
11.30-----------78--------------947/31//
11.45-----------12--------------794/26//
12.00-----------67--------------489/65//
12.15-----------56--------------904-69//
12.30-----------67--------------
monmai2
เมื่อ  8 วันที่ผ่านมา  โดย monmai2
เสียว 2 ตัว เน้นๆ อ.ไม้
09.45-----------67----------------------------
10.00-----------45--------------637-58//
10.15-----------89--------------609-77//
10.30-----------78--------------578/65//เด้ง
10.45-----------56--------------167-07//
11.00-----------01--------------868/45---------
11.15-----------45--------------353/70//
11.30-----------78--------------947/31//
11.45-----------12--------------794/26//
12.00-----------67--------------489/65//
12.15-----------56--------------904-69//
12.30-----------67--------------747/35//
12.45-----------34--------------
monmai2
เมื่อ  8 วันที่ผ่านมา  โดย monmai2

เมื่อ 14 นาทีที่ผ่านมา โดย monmai2 ตอบกลับ
เสียว 2 ตัว เน้นๆ อ.ไม้
09.45-----------67----------------------------
10.00-----------45--------------637-58//
10.15-----------89--------------609-77//
10.30-----------78--------------578/65//เด้ง
10.45-----------56--------------167-07//
11.00-----------01--------------868/45---------
11.15-----------45--------------353/70//
11.30-----------78--------------947/31//
11.45-----------12--------------794/26//
12.00-----------67--------------489/65//
12.15-----------56--------------904-69//
12.30-----------67--------------747/35//
12.45-----------34--------------557-76------------
13.00-----------78--------------
monmai2
เมื่อ  8 วันที่ผ่านมา  โดย monmai2
เสียว 2 ตัว เน้นๆ อ.ไม้
09.45-----------67----------------------------
10.00-----------45--------------637-58//
10.15-----------89--------------609-77//
10.30-----------78--------------578/65//เด้ง
10.45-----------56--------------167-07//
11.00-----------01--------------868/45---------
11.15-----------45--------------353/70//
11.30-----------78--------------947/31//
11.45-----------12--------------794/26//
12.00-----------67--------------489/65//
12.15-----------56--------------904-69//
12.30-----------67--------------747/35//
12.45-----------34--------------557-76------------
13.00-----------78--------------225-55------------ขออภัย
13.15-----------45--------------
monmai2
เมื่อ  8 วันที่ผ่านมา  โดย monmai2
เสียว 2 ตัว เน้นๆ อ.ไม้
09.45-----------67----------------------------
10.00-----------45--------------637-58//
10.15-----------89--------------609-77//
10.30-----------78--------------578/65//เด้ง
10.45-----------56--------------167-07//
11.00-----------01--------------868/45---------
11.15-----------45--------------353/70//
11.30-----------78--------------947/31//
11.45-----------12--------------794/26//
12.00-----------67--------------489/65//
12.15-----------56--------------904-69//
12.30-----------67--------------747/35//
12.45-----------34--------------557-76------------
13.00-----------78--------------225-55------------ขออภัย
13.15-----------45--------------235-63//
13.30-----------34-------------
monmai2
เมื่อ  8 วันที่ผ่านมา  โดย monmai2
เสียว 2 ตัว เน้นๆ อ.ไม้
09.45-----------67----------------------------
10.00-----------45--------------637-58//
10.15-----------89--------------609-77//
10.30-----------78--------------578/65//เด้ง
10.45-----------56--------------167-07//
11.00-----------01--------------868/45---------
11.15-----------45--------------353/70//
11.30-----------78--------------947/31//
11.45-----------12--------------794/26//
12.00-----------67--------------489/65//
12.15-----------56--------------904-69//
12.30-----------67--------------747/35//
12.45-----------34--------------557-76------------
13.00-----------78--------------225-55------------ขออภัย
13.15-----------45--------------235-63//
13.30-----------34-------------368/38//
13.45-----------89-------------
monmai2
เมื่อ  8 วันที่ผ่านมา  โดย monmai2

เมื่อ 7 นาทีที่ผ่านมา โดย monmai2 ตอบกลับ
เสียว 2 ตัว เน้นๆ อ.ไม้
09.45-----------67----------------------------
10.00-----------45--------------637-58//
10.15-----------89--------------609-77//
10.30-----------78--------------578/65//เด้ง
10.45-----------56--------------167-07//
11.00-----------01--------------868/45---------
11.15-----------45--------------353/70//
11.30-----------78--------------947/31//
11.45-----------12--------------794/26//
12.00-----------67--------------489/65//
12.15-----------56--------------904-69//
12.30-----------67--------------747/35//
12.45-----------34--------------557-76------------
13.00-----------78--------------225-55------------ขออภัย
13.15-----------45--------------235-63//
13.30-----------34-------------368/38//
13.45-----------89-------------335-30--------
14.00-----------01-------------
monmai2
เมื่อ  8 วันที่ผ่านมา  โดย monmai2
เสียว 2 ตัว เน้นๆ อ.ไม้
09.45-----------67----------------------------
10.00-----------45--------------637-58//
10.15-----------89--------------609-77//
10.30-----------78--------------578/65//เด้ง
10.45-----------56--------------167-07//
11.00-----------01--------------868/45---------
11.15-----------45--------------353/70//
11.30-----------78--------------947/31//
11.45-----------12--------------794/26//
12.00-----------67--------------489/65//
12.15-----------56--------------904-69//
12.30-----------67--------------747/35//
12.45-----------34--------------557-76------------
13.00-----------78--------------225-55------------ขออภัย
13.15-----------45--------------235-63//
13.30-----------34-------------368/38//
13.45-----------89-------------335-30--------
14.00-----------01-------------180-07//เด้งงงงง
14.15-----------01-------------
สนใจทักมา id monrudee999 รายสัปดห์ 50บาท////เท่านั้น////
monmai2
เมื่อ  8 วันที่ผ่านมา  โดย monmai2
เสียว 2 ตัว เน้นๆ อ.ไม้
09.45-----------67----------------------------
10.00-----------45--------------637-58//
10.15-----------89--------------609-77//
10.30-----------78--------------578/65//เด้ง
10.45-----------56--------------167-07//
11.00-----------01--------------868/45---------
11.15-----------45--------------353/70//
11.30-----------78--------------947/31//
11.45-----------12--------------794/26//
12.00-----------67--------------489/65//
12.15-----------56--------------904-69//
12.30-----------67--------------747/35//
12.45-----------34--------------557-76------------
13.00-----------78--------------225-55------------ขออภัย
13.15-----------45--------------235-63//
13.30-----------34-------------368/38//
13.45-----------89-------------335-30--------
14.00-----------01-------------180-07//เด้งงงงง
14.15-----------01-------------026-45//
14.30-----------45--------------
สนใจทักมา id monrudee999 รายสัปดห์ 50บาท////เท่านั้น////
monmai2
เมื่อ  8 วันที่ผ่านมา  โดย monmai2
เสียว 2 ตัว เน้นๆ อ.ไม้
09.45-----------67----------------------------
10.00-----------45--------------637-58//
10.15-----------89--------------609-77//
10.30-----------78--------------578/65//เด้ง
10.45-----------56--------------167-07//
11.00-----------01--------------868/45---------
11.15-----------45--------------353/70//
11.30-----------78--------------947/31//
11.45-----------12--------------794/26//
12.00-----------67--------------489/65//
12.15-----------56--------------904-69//
12.30-----------67--------------747/35//
12.45-----------34--------------557-76------------
13.00-----------78--------------225-55------------ขออภัย
13.15-----------45--------------235-63//
13.30-----------34-------------368/38//
13.45-----------89-------------335-30--------
14.00-----------01-------------180-07//เด้งงงงง
14.15-----------01-------------026-45//
14.30-----------45-------------571/67//
14.45-----------78-------------
สนใจทักมา id monrudee999 รายสัปดห์ 50บาท////เท่านั้น////
monmai2
เมื่อ  8 วันที่ผ่านมา  โดย monmai2
เสียว 2 ตัว เน้นๆ อ.ไม้
09.45-----------67----------------------------
10.00-----------45--------------637-58//
10.15-----------89--------------609-77//
10.30-----------78--------------578/65//เด้ง
10.45-----------56--------------167-07//
11.00-----------01--------------868/45---------
11.15-----------45--------------353/70//
11.30-----------78--------------947/31//
11.45-----------12--------------794/26//
12.00-----------67--------------489/65//
12.15-----------56--------------904-69//
12.30-----------67--------------747/35//
12.45-----------34--------------557-76------------
13.00-----------78--------------225-55------------ขออภัย
13.15-----------45--------------235-63//
13.30-----------34-------------368/38//
13.45-----------89-------------335-30--------
14.00-----------01-------------180-07//เด้งงงงง
14.15-----------01-------------026-45//
14.30-----------45-------------571/67//
14.45-----------78-------------540-83//
15.00-----------34-------------
สนใจทักมา id monrudee999 รายสัปดห์ 50บาท////เท่านั้น////
monmai2
เมื่อ  8 วันที่ผ่านมา  โดย monmai2
สียว 2 ตัว เน้นๆ อ.ไม้
09.45-----------67----------------------------
10.00-----------45--------------637-58//
10.15-----------89--------------609-77//
10.30-----------78--------------578/65//เด้ง
10.45-----------56--------------167-07//
11.00-----------01--------------868/45---------
11.15-----------45--------------353/70//
11.30-----------78--------------947/31//
11.45-----------12--------------794/26//
12.00-----------67--------------489/65//
12.15-----------56--------------904-69//
12.30-----------67--------------747/35//
12.45-----------34--------------557-76------------
13.00-----------78--------------225-55------------ขออภัย
13.15-----------45--------------235-63//
13.30-----------34-------------368/38//
13.45-----------89-------------335-30--------
14.00-----------01-------------180-07//เด้งงงงง
14.15-----------01-------------026-45//
14.30-----------45-------------571/67//
14.45-----------78-------------540-83//
15.00-----------34-------------563/73//เด้งงงงงงงงงง
15.15-----------67-------------
สนใจทักมา id monrudee999 รายสัปดห์ 50บาท////เท่านั้น////
monmai2
เมื่อ  8 วันที่ผ่านมา  โดย monmai2
สียว 2 ตัว เน้นๆ อ.ไม้
09.45-----------67----------------------------
10.00-----------45--------------637-58//
10.15-----------89--------------609-77//
10.30-----------78--------------578/65//เด้ง
10.45-----------56--------------167-07//
11.00-----------01--------------868/45---------
11.15-----------45--------------353/70//
11.30-----------78--------------947/31//
11.45-----------12--------------794/26//
12.00-----------67--------------489/65//
12.15-----------56--------------904-69//
12.30-----------67--------------747/35//
12.45-----------34--------------557-76------------
13.00-----------78--------------225-55------------ขออภัย
13.15-----------45--------------235-63//
13.30-----------34-------------368/38//
13.45-----------89-------------335-30--------
14.00-----------01-------------180-07//เด้งงงงง
14.15-----------01-------------026-45//
14.30-----------45-------------571/67//
14.45-----------78-------------540-83//
15.00-----------34-------------563/73//เด้งงงงงงงงงง
15.15-----------67-------------921-24------------------ขอโทษ
15.30-----------01-------------
สนใจทักมา id monrudee999 รายสัปดห์ 50บาท////เท่านั้น////
monmai2
เมื่อ  8 วันที่ผ่านมา  โดย monmai2
ยว 2 ตัว เน้นๆ อ.ไม้
09.45-----------67----------------------------
10.00-----------45--------------637-58//
10.15-----------89--------------609-77//
10.30-----------78--------------578/65//เด้ง
10.45-----------56--------------167-07//
11.00-----------01--------------868/45---------
11.15-----------45--------------353/70//
11.30-----------78--------------947/31//
11.45-----------12--------------794/26//
12.00-----------67--------------489/65//
12.15-----------56--------------904-69//
12.30-----------67--------------747/35//
12.45-----------34--------------557-76------------
13.00-----------78--------------225-55------------ขออภัย
13.15-----------45--------------235-63//
13.30-----------34-------------368/38//
13.45-----------89-------------335-30--------
14.00-----------01-------------180-07//เด้งงงงง
14.15-----------01-------------026-45//
14.30-----------45-------------571/67//
14.45-----------78-------------540-83//
15.00-----------34-------------563/73//เด้งงงงงงงงงง
15.15-----------67-------------921-24------------------ขอโทษ
15.30-----------01-------------690-46//
15.45-----------56-------------
monmai2
เมื่อ  8 วันที่ผ่านมา  โดย monmai2
ยว 2 ตัว เน้นๆ อ.ไม้
09.45-----------67----------------------------
10.00-----------45--------------637-58//
10.15-----------89--------------609-77//
10.30-----------78--------------578/65//เด้ง
10.45-----------56--------------167-07//
11.00-----------01--------------868/45---------
11.15-----------45--------------353/70//
11.30-----------78--------------947/31//
11.45-----------12--------------794/26//
12.00-----------67--------------489/65//
12.15-----------56--------------904-69//
12.30-----------67--------------747/35//
12.45-----------34--------------557-76------------
13.00-----------78--------------225-55------------ขออภัย
13.15-----------45--------------235-63//
13.30-----------34-------------368/38//
13.45-----------89-------------335-30--------
14.00-----------01-------------180-07//เด้งงงงง
14.15-----------01-------------026-45//
14.30-----------45-------------571/67//
14.45-----------78-------------540-83//
15.00-----------34-------------563/73//เด้งงงงงงงงงง
15.15-----------67-------------921-24------------------ขอโทษ
15.30-----------01-------------690-46//
15.45-----------56-------------216-53//เด้งงงงงงงงงง
16.00-----------56-------------
สนใจทักมา id monrudee999 รายสัปดห์ 50บาท////เท่านั้น////
monmai2
เมื่อ  8 วันที่ผ่านมา  โดย monmai2
16.15..........89..........
----------ขับรถ----------
monmai2
เมื่อ  8 วันที่ผ่านมา  โดย monmai2  
239/96 เด้งงงงงงงงงงงงงงงงงงง
monmai2
เมื่อ  8 วันที่ผ่านมา  โดย monmai2
16.30 -------------90----------ขอให้รวย สนใจทักมานะ
ปิดดดดดดถอนนนนนนน

ข่าวประกาศล่าสุด

สมาชิกล่าสุด

koyo
koyo เมื่อ  1 นาทีที่ผ่านมา
เพศ: หญิง
Kornpp2512
Kornpp2512 เมื่อ  6 นาทีที่ผ่านมา
เพศ: หญิง
TN2231
TN2231 เมื่อ  9 นาทีที่ผ่านมา
เพศ: หญิง
pui111
pui111 เมื่อ  14 นาทีที่ผ่านมา
เพศ: หญิง
Coon
Coon เมื่อ  17 นาทีที่ผ่านมา
เพศ: หญิง
One99
One99 เมื่อ  21 นาทีที่ผ่านมา
เพศ: หญิง
WichitRiang
WichitRiang เมื่อ  23 นาทีที่ผ่านมา
เพศ: หญิง
Aummonta_1968
Aummonta_1968 เมื่อ  25 นาทีที่ผ่านมา
เพศ: หญิง
Guitar2511
Guitar2511 เมื่อ  27 นาทีที่ผ่านมา
เพศ: หญิง
Kae3311
Kae3311 เมื่อ  27 นาทีที่ผ่านมา
เพศ: หญิง